  0
SECTION
  2
HEADER
  9
$ACADVER
  1
AC1015
  9
$ACADMAINTVER
 70
     6
  9
$DWGCODEPAGE
  3
ANSI_1254
  9
$INSBASE
 10
0.0
 20
0.0
 30
0.0
  9
$EXTMIN
 10
0.0
 20
0.0
 30
0.0
  9
$EXTMAX
 10
279.4
 20
215.9
 30
0.0
  9
$LIMMIN
 10
0.0
 20
0.0
  9
$LIMMAX
 10
279.4
 20
215.9
  9
$ORTHOMODE
 70
     0
  9
$REGENMODE
 70
     1
  9
$FILLMODE
 70
     1
  9
$QTEXTMODE
 70
     0
  9
$MIRRTEXT
 70
     1
  9
$LTSCALE
 40
1.0
  9
$ATTMODE
 70
     1
  9
$TEXTSIZE
 40
3.5
  9
$TRACEWID
 40
1.0
  9
$TEXTSTYLE
  7
Standard
  9
$CLAYER
  8
0
  9
$CELTYPE
  6
ByLayer
  9
$CECOLOR
 62
   256
  9
$CELTSCALE
 40
1.0
  9
$DISPSILH
 70
     0
  9
$DIMSCALE
 40
1.0
  9
$DIMASZ
 40
3.5
  9
$DIMEXO
 40
1.0
  9
$DIMDLI
 40
3.75
  9
$DIMRND
 40
0.0
  9
$DIMDLE
 40
0.0
  9
$DIMEXE
 40
1.0
  9
$DIMTP
 40
0.0
  9
$DIMTM
 40
0.0
  9
$DIMTXT
 40
3.5
  9
$DIMCEN
 40
2.5
  9
$DIMTSZ
 40
0.0
  9
$DIMTOL
 70
     0
  9
$DIMLIM
 70
     0
  9
$DIMTIH
 70
     1
  9
$DIMTOH
 70
     1
  9
$DIMSE1
 70
     0
  9
$DIMSE2
 70
     0
  9
$DIMTAD
 70
     1
  9
$DIMZIN
 70
     0
  9
$DIMBLK
  1

  9
$DIMASO
 70
     1
  9
$DIMSHO
 70
     1
  9
$DIMPOST
  1

  9
$DIMAPOST
  1

  9
$DIMALT
 70
     0
  9
$DIMALTD
 70
     3
  9
$DIMALTF
 40
0.0393700787
  9
$DIMLFAC
 40
1.0
  9
$DIMTOFL
 70
     1
  9
$DIMTVP
 40
0.0
  9
$DIMTIX
 70
     0
  9
$DIMSOXD
 70
     0
  9
$DIMSAH
 70
     0
  9
$DIMBLK1
  1

  9
$DIMBLK2
  1

  9
$DIMSTYLE
  2
ISO-25
  9
$DIMCLRD
 70
     0
  9
$DIMCLRE
 70
     0
  9
$DIMCLRT
 70
     0
  9
$DIMTFAC
 40
1.0
  9
$DIMGAP
 40
1.524
  9
$DIMJUST
 70
     0
  9
$DIMSD1
 70
     0
  9
$DIMSD2
 70
     0
  9
$DIMTOLJ
 70
     0
  9
$DIMTZIN
 70
     0
  9
$DIMALTZ
 70
     0
  9
$DIMALTTZ
 70
     0
  9
$DIMUPT
 70
     0
  9
$DIMDEC
 70
     2
  9
$DIMTDEC
 70
     2
  9
$DIMALTU
 70
     2
  9
$DIMALTTD
 70
     3
  9
$DIMTXSTY
  7
Standard
  9
$DIMAUNIT
 70
     0
  9
$DIMADEC
 70
     2
  9
$DIMALTRND
 40
0.0
  9
$DIMAZIN
 70
     0
  9
$DIMDSEP
 70
    44
  9
$DIMATFIT
 70
     3
  9
$DIMFRAC
 70
     0
  9
$DIMLDRBLK
  1

  9
$DIMLUNIT
 70
     2
  9
$DIMLWD
 70
    -2
  9
$DIMLWE
 70
    -2
  9
$DIMTMOVE
 70
     0
  9
$LUNITS
 70
     2
  9
$LUPREC
 70
     2
  9
$SKETCHINC
 40
1.0
  9
$FILLETRAD
 40
10.0
  9
$AUNITS
 70
     0
  9
$AUPREC
 70
     2
  9
$MENU
  1
.
  9
$ELEVATION
 40
0.0
  9
$PELEVATION
 40
0.0
  9
$THICKNESS
 40
0.0
  9
$LIMCHECK
 70
     0
  9
$CHAMFERA
 40
0.0
  9
$CHAMFERB
 40
0.0
  9
$CHAMFERC
 40
0.0
  9
$CHAMFERD
 40
0.0
  9
$SKPOLY
 70
     0
  9
$TDCREATE
 40
2460697.541031111
  9
$TDUCREATE
 40
2460697.416031111
  9
$TDUPDATE
 40
2460697.541031273
  9
$TDUUPDATE
 40
2460697.416031273
  9
$TDINDWG
 40
0.0000000116
  9
$TDUSRTIMER
 40
0.0000000116
  9
$USRTIMER
 70
     1
  9
$ANGBASE
 50
0.0
  9
$ANGDIR
 70
     0
  9
$PDMODE
 70
     0
  9
$PDSIZE
 40
-1.0
  9
$PLINEWID
 40
0.0
  9
$SPLFRAME
 70
     0
  9
$SPLINETYPE
 70
     6
  9
$SPLINESEGS
 70
     8
  9
$HANDSEED
  5
B3
  9
$SURFTAB1
 70
     6
  9
$SURFTAB2
 70
     6
  9
$SURFTYPE
 70
     6
  9
$SURFU
 70
     6
  9
$SURFV
 70
     6
  9
$UCSBASE
  2

  9
$UCSNAME
  2

  9
$UCSORG
 10
0.0
 20
0.0
 30
0.0
  9
$UCSXDIR
 10
1.0
 20
0.0
 30
0.0
  9
$UCSYDIR
 10
0.0
 20
1.0
 30
0.0
  9
$UCSORTHOREF
  2

  9
$UCSORTHOVIEW
 70
     0
  9
$UCSORGTOP
 10
0.0
 20
0.0
 30
0.0
  9
$UCSORGBOTTOM
 10
0.0
 20
0.0
 30
0.0
  9
$UCSORGLEFT
 10
0.0
 20
0.0
 30
0.0
  9
$UCSORGRIGHT
 10
0.0
 20
0.0
 30
0.0
  9
$UCSORGFRONT
 10
0.0
 20
0.0
 30
0.0
  9
$UCSORGBACK
 10
0.0
 20
0.0
 30
0.0
  9
$PUCSBASE
  2

  9
$PUCSNAME
  2

  9
$PUCSORG
 10
0.0
 20
0.0
 30
0.0
  9
$PUCSXDIR
 10
1.0
 20
0.0
 30
0.0
  9
$PUCSYDIR
 10
0.0
 20
1.0
 30
0.0
  9
$PUCSORTHOREF
  2

  9
$PUCSORTHOVIEW
 70
     0
  9
$PUCSORGTOP
 10
0.0
 20
0.0
 30
0.0
  9
$PUCSORGBOTTOM
 10
0.0
 20
0.0
 30
0.0
  9
$PUCSORGLEFT
 10
0.0
 20
0.0
 30
0.0
  9
$PUCSORGRIGHT
 10
0.0
 20
0.0
 30
0.0
  9
$PUCSORGFRONT
 10
0.0
 20
0.0
 30
0.0
  9
$PUCSORGBACK
 10
0.0
 20
0.0
 30
0.0
  9
$USERI1
 70
     0
  9
$USERI2
 70
     0
  9
$USERI3
 70
     0
  9
$USERI4
 70
     0
  9
$USERI5
 70
     0
  9
$USERR1
 40
0.0
  9
$USERR2
 40
0.0
  9
$USERR3
 40
0.0
  9
$USERR4
 40
0.0
  9
$USERR5
 40
0.0
  9
$WORLDVIEW
 70
     1
  9
$SHADEDGE
 70
     3
  9
$SHADEDIF
 70
    70
  9
$TILEMODE
 70
     1
  9
$MAXACTVP
 70
    64
  9
$PINSBASE
 10
0.0
 20
0.0
 30
0.0
  9
$PLIMCHECK
 70
     0
  9
$PEXTMIN
 10
1.0000000000E+20
 20
1.0000000000E+20
 30
1.0000000000E+20
  9
$PEXTMAX
 10
-1.0000000000E+20
 20
-1.0000000000E+20
 30
-1.0000000000E+20
  9
$PLIMMIN
 10
0.0
 20
0.0
  9
$PLIMMAX
 10
420.0
 20
297.0
  9
$UNITMODE
 70
     0
  9
$VISRETAIN
 70
     1
  9
$PLINEGEN
 70
     0
  9
$PSLTSCALE
 70
     1
  9
$TREEDEPTH
 70
  3020
  9
$CMLSTYLE
  2
Standard
  9
$CMLJUST
 70
     0
  9
$CMLSCALE
 40
20.0
  9
$PROXYGRAPHICS
 70
     1
  9
$MEASUREMENT
 70
     1
  9
$CELWEIGHT
370
    -1
  9
$ENDCAPS
280
     0
  9
$JOINSTYLE
280
     0
  9
$LWDISPLAY
290
     1
  9
$INSUNITS
 70
     4
  9
$HYPERLINKBASE
  1

  9
$STYLESHEET
  1

  9
$XEDIT
290
     1
  9
$CEPSNTYPE
380
     0
  9
$PSTYLEMODE
290
     1
  9
$FINGERPRINTGUID
  2
{576c9655-bc89-4b26-841b-da08e3cf994f}
  9
$VERSIONGUID
  2
{FAEB1C32-E019-11D5-929B-00C0DF256EC4}
  9
$EXTNAMES
290
     1
  9
$PSVPSCALE
 40
0.0
  9
$OLESTARTUP
290
     0
  0
ENDSEC
  0
SECTION
  2
CLASSES
  0
CLASS
  1
ACDBDICTIONARYWDFLT
  2
AcDbDictionaryWithDefault
  3
ObjectDBX Classes
 90
        0
280
     0
281
     0
  0
CLASS
  1
VISUALSTYLE
  2
AcDbVisualStyle
  3
ObjectDBX Classes
 90
     4095
280
     0
281
     0
  0
CLASS
  1
MATERIAL
  2
AcDbMaterial
  3
ObjectDBX Classes
 90
     1153
280
     0
281
     0
  0
CLASS
  1
SCALE
  2
AcDbScale
  3
ObjectDBX Classes
 90
     1153
280
     0
281
     0
  0
CLASS
  1
TABLESTYLE
  2
AcDbTableStyle
  3
ObjectDBX Classes
 90
     4095
280
     0
281
     0
  0
CLASS
  1
MLEADERSTYLE
  2
AcDbMLeaderStyle
  3
ACDB_MLEADERSTYLE_CLASS
 90
     4095
280
     0
281
     0
  0
CLASS
  1
SUN
  2
AcDbSun
  3
SCENEOE
 90
     1153
280
     0
281
     0
  0
CLASS
  1
ACDBPLACEHOLDER
  2
AcDbPlaceHolder
  3
ObjectDBX Classes
 90
        0
280
     0
281
     0
  0
CLASS
  1
LAYOUT
  2
AcDbLayout
  3
ObjectDBX Classes
 90
        0
280
     0
281
     0
  0
ENDSEC
  0
SECTION
  2
TABLES
  0
TABLE
  2
VPORT
  5
8
330
0
100
AcDbSymbolTable
 70
     1
  0
VPORT
  5
29
330
8
100
AcDbSymbolTableRecord
100
AcDbViewportTableRecord
  2
*Active
 70
     0
 10
0.0
 20
0.0
 11
1.0
 21
1.0
 12
139.7
 22
107.95
 13
0.0
 23
0.0
 14
10.0
 24
10.0
 15
10.0
 25
10.0
 16
0.0
 26
0.0
 36
1.0
 17
0.0
 27
0.0
 37
0.0
 40
215.9
 41
1.2941176471
 42
50.0
 43
0.0
 44
0.0
 50
0.0
 51
0.0
 71
     0
 72
  2000
 73
     1
 74
     3
 75
     0
 76
     0
 77
     0
 78
     0
281
     0
 65
     1
110
0.0
120
0.0
130
0.0
111
1.0
121
0.0
131
0.0
112
0.0
122
1.0
132
0.0
 79
     0
146
0.0
  0
ENDTAB
  0
TABLE
  2
LTYPE
  5
5
330
0
100
AcDbSymbolTable
 70
     6
  0
LTYPE
  5
14
330
5
100
AcDbSymbolTableRecord
100
AcDbLinetypeTableRecord
  2
ByBlock
 70
     0
  3

 72
    65
 73
     0
 40
0.0
  0
LTYPE
  5
15
330
5
100
AcDbSymbolTableRecord
100
AcDbLinetypeTableRecord
  2
ByLayer
 70
     0
  3

 72
    65
 73
     0
 40
0.0
  0
LTYPE
  5
16
330
5
100
AcDbSymbolTableRecord
100
AcDbLinetypeTableRecord
  2
Continuous
 70
     0
  3
Solid line
 72
    65
 73
     0
 40
0.0
  0
LTYPE
  5
6E
330
5
100
AcDbSymbolTableRecord
100
AcDbLinetypeTableRecord
  2
HIDDEN
 70
     0
  3
Hidden __ __ __ __ __ __ __ __ __ __ __ __ __ __
 72
    65
 73
     2
 40
1.905
 49
1.27
 74
     0
 49
-0.635
 74
     0
  0
LTYPE
  5
6F
330
5
100
AcDbSymbolTableRecord
100
AcDbLinetypeTableRecord
  2
PHANTOM
 70
     0
  3
Phantom ______  __  __  ______  __  __  ______
 72
    65
 73
     6
 40
12.7
 49
6.35
 74
     0
 49
-1.27
 74
     0
 49
1.27
 74
     0
 49
-1.27
 74
     0
 49
1.27
 74
     0
 49
-1.27
 74
     0
  0
LTYPE
  5
70
330
5
100
AcDbSymbolTableRecord
100
AcDbLinetypeTableRecord
  2
CENTER
 70
     0
  3
Center ____ _ ____ _ ____ _ ____ _ ____ _ ____
 72
    65
 73
     4
 40
10.16
 49
6.35
 74
     0
 49
-1.27
 74
     0
 49
1.27
 74
     0
 49
-1.27
 74
     0
  0
LTYPE
  5
71
330
5
100
AcDbSymbolTableRecord
100
AcDbLinetypeTableRecord
  2
CENTERX2
 70
     0
  3
Center (2x) ________  __  ________  __  _____
 72
    65
 73
     4
 40
20.32
 49
12.7
 74
     0
 49
-2.54
 74
     0
 49
2.54
 74
     0
 49
-2.54
 74
     0
  0
LTYPE
  5
72
330
5
100
AcDbSymbolTableRecord
100
AcDbLinetypeTableRecord
  2
DOT2
 70
     0
  3
Dot (.5x) ........................................
 72
    65
 73
     2
 40
0.635
 49
0.0
 74
     0
 49
-0.635
 74
     0
  0
ENDTAB
  0
TABLE
  2
LAYER
  5
2
330
0
100
AcDbSymbolTable
 70
    17
  0
LAYER
  5
10
330
2
100
AcDbSymbolTableRecord
100
AcDbLayerTableRecord
  2
0
 70
     0
 62
     7
  6
Continuous
370
    -3
390
F
  0
LAYER
  5
73
330
2
100
AcDbSymbolTableRecord
100
AcDbLayerTableRecord
  2
FORMAT
 70
     0
 62
     7
  6
Continuous
370
    -3
390
F
  0
LAYER
  5
74
330
2
100
AcDbSymbolTableRecord
100
AcDbLayerTableRecord
  2
YARDIMCI_GEOMETRI
 70
     0
 62
    -6
  6
Continuous
290
     0
370
    -3
390
F
  0
LAYER
  5
75
330
2
100
AcDbSymbolTableRecord
100
AcDbLayerTableRecord
  2
SAYFA_CERCEVESI
 70
     0
 62
     7
  6
Continuous
370
    25
390
F
  0
LAYER
  5
76
330
2
100
AcDbSymbolTableRecord
100
AcDbLayerTableRecord
  2
ANTET
 70
     0
 62
     7
  6
Continuous
370
    -3
390
F
  0
LAYER
  5
77
330
2
100
AcDbSymbolTableRecord
100
AcDbLayerTableRecord
  2
OLCU
 70
     0
 62
   150
  6
Continuous
370
    -3
390
F
  0
LAYER
  5
78
330
2
100
AcDbSymbolTableRecord
100
AcDbLayerTableRecord
  2
METIN
 70
     0
 62
    96
  6
Continuous
370
    -3
390
F
  0
LAYER
  5
79
330
2
100
AcDbSymbolTableRecord
100
AcDbLayerTableRecord
  2
BALON
 70
     0
 62
     5
  6
Continuous
370
    -3
390
F
  0
LAYER
  5
7A
330
2
100
AcDbSymbolTableRecord
100
AcDbLayerTableRecord
  2
VURGU
 70
     0
 62
     7
  6
Continuous
370
    -3
390
F
  0
LAYER
  5
7B
330
2
100
AcDbSymbolTableRecord
100
AcDbLayerTableRecord
  2
SILIK
 70
     0
 62
     7
  6
Continuous
370
    -3
390
F
  0
LAYER
  5
7C
330
2
100
AcDbSymbolTableRecord
100
AcDbLayerTableRecord
  2
MODEL
 70
     0
 62
     7
  6
Continuous
370
    -3
390
F
  0
LAYER
  5
7D
330
2
100
AcDbSymbolTableRecord
100
AcDbLayerTableRecord
  2
DETAYLANDıRMA
 70
     0
 62
   190
  6
Continuous
370
    -3
390
F
  0
LAYER
  5
7E
330
2
100
AcDbSymbolTableRecord
100
AcDbLayerTableRecord
  2
TOLERANS
 70
     0
 62
   230
  6
Continuous
370
    -3
390
F
  0
LAYER
  5
7F
330
2
100
AcDbSymbolTableRecord
100
AcDbLayerTableRecord
  2
MERKEZ_CIZGILERI
 70
     0
 62
    30
  6
Continuous
370
    -3
390
F
  0
LAYER
  5
80
330
2
100
AcDbSymbolTableRecord
100
AcDbLayerTableRecord
  2
KESIT-DETAY_CIZGILERI
 70
     0
 62
     7
  6
Continuous
370
    -3
390
F
  0
LAYER
  5
81
330
2
100
AcDbSymbolTableRecord
100
AcDbLayerTableRecord
  2
\U+041E\U+0421\U+0415\U+0412\U+042B\U+0415
 70
     0
 62
     7
  6
Continuous
370
    -3
390
F
  0
LAYER
  5
82
330
2
100
AcDbSymbolTableRecord
100
AcDbLayerTableRecord
  2
\U+0412\U+041E\U+0414\U+042F\U+041D\U+042B\U+0415_\U+0417\U+041D\U+0410\U+041A\U+0418
 70
     0
 62
    11
  6
Continuous
370
    -3
390
F
  0
ENDTAB
  0
TABLE
  2
STYLE
  5
3
330
0
100
AcDbSymbolTable
 70
     1
  0
STYLE
  5
11
330
3
100
AcDbSymbolTableRecord
100
AcDbTextStyleTableRecord
  2
Standard
 70
     0
 40
0.0
 41
1.0
 50
0.0
 71
     0
 42
3.5
  3
txt
  4

  0
ENDTAB
  0
TABLE
  2
VIEW
  5
6
330
0
100
AcDbSymbolTable
 70
     0
  0
ENDTAB
  0
TABLE
  2
UCS
  5
7
330
0
100
AcDbSymbolTable
 70
     0
  0
ENDTAB
  0
TABLE
  2
APPID
  5
9
330
0
100
AcDbSymbolTable
 70
     1
  0
APPID
  5
12
330
9
100
AcDbSymbolTableRecord
100
AcDbRegAppTableRecord
  2
ACAD
 70
     0
  0
ENDTAB
  0
TABLE
  2
DIMSTYLE
  5
A
330
0
100
AcDbSymbolTable
 70
     1
100
AcDbDimStyleTable
  0
DIMSTYLE
105
27
330
A
100
AcDbSymbolTableRecord
100
AcDbDimStyleTableRecord
  2
ISO-25
 70
     0
 41
2.5
 42
0.625
 43
3.75
 44
1.25
 73
     0
 74
     0
 77
     1
 78
     8
140
2.5
141
2.5
143
0.0393700787
147
0.625
171
     3
172
     1
178
     0
271
     2
272
     2
274
     3
278
    44
283
     0
284
     8
340
11
  0
ENDTAB
  0
TABLE
  2
BLOCK_RECORD
  5
1
330
0
100
AcDbSymbolTable
 70
     2
  0
BLOCK_RECORD
  5
1F
330
1
100
AcDbSymbolTableRecord
100
AcDbBlockTableRecord
  2
*Model_Space
340
22
  0
BLOCK_RECORD
  5
1B
330
1
100
AcDbSymbolTableRecord
100
AcDbBlockTableRecord
  2
*Paper_Space
340
1E
  0
BLOCK_RECORD
  5
23
330
1
100
AcDbSymbolTableRecord
100
AcDbBlockTableRecord
  2
*Paper_Space0
340
26
  0
BLOCK_RECORD
  5
85
330
1
100
AcDbSymbolTableRecord
100
AcDbBlockTableRecord
  2
SW_CENTERMARKSYMBOL_0
340
0
102
{BLKREFS
331
90
102
}
  0
ENDTAB
  0
ENDSEC
  0
SECTION
  2
BLOCKS
  0
BLOCK
  5
20
330
1F
100
AcDbEntity
  8
0
100
AcDbBlockBegin
  2
*Model_Space
 70
     0
 10
0.0
 20
0.0
 30
0.0
  3
*Model_Space
  1

  0
ENDBLK
  5
21
330
1F
100
AcDbEntity
  8
0
100
AcDbBlockEnd
  0
BLOCK
  5
1C
330
1B
100
AcDbEntity
 67
     1
  8
0
100
AcDbBlockBegin
  2
*Paper_Space
 70
     0
 10
0.0
 20
0.0
 30
0.0
  3
*Paper_Space
  1

  0
ENDBLK
  5
1D
330
1B
100
AcDbEntity
 67
     1
  8
0
100
AcDbBlockEnd
  0
BLOCK
  5
24
330
23
100
AcDbEntity
  8
0
100
AcDbBlockBegin
  2
*Paper_Space0
 70
     0
 10
0.0
 20
0.0
 30
0.0
  3
*Paper_Space0
  1

  0
ENDBLK
  5
25
330
23
100
AcDbEntity
  8
0
100
AcDbBlockEnd
  0
BLOCK
  5
86
330
85
100
AcDbEntity
  8
0
100
AcDbBlockBegin
  2
SW_CENTERMARKSYMBOL_0
 70
     0
 10
0.0
 20
0.0
 30
0.0
  3
SW_CENTERMARKSYMBOL_0
  1

  0
LINE
  5
88
330
85
100
AcDbEntity
  8
FORMAT
 62
     0
100
AcDbLine
 10
0.0
 20
0.0
 30
0.0
 11
0.0
 21
2.5
 31
0.0
  0
LINE
  5
89
330
85
100
AcDbEntity
  8
FORMAT
 62
     0
100
AcDbLine
 10
0.0
 20
0.0
 30
0.0
 11
-2.5
 21
0.0
 31
0.0
  0
LINE
  5
8A
330
85
100
AcDbEntity
  8
FORMAT
 62
     0
100
AcDbLine
 10
0.0
 20
0.0
 30
0.0
 11
0.0
 21
-2.5
 31
0.0
  0
LINE
  5
8B
330
85
100
AcDbEntity
  8
FORMAT
 62
     0
100
AcDbLine
 10
0.0
 20
0.0
 30
0.0
 11
2.5
 21
0.0
 31
0.0
  0
LINE
  5
8C
330
85
100
AcDbEntity
  8
FORMAT
 62
     0
100
AcDbLine
 10
0.0
 20
5.0
 30
0.0
 11
0.0
 21
202.5
 31
0.0
  0
LINE
  5
8D
330
85
100
AcDbEntity
  8
FORMAT
 62
     0
100
AcDbLine
 10
-5.0
 20
0.0
 30
0.0
 11
-202.5
 21
0.0
 31
0.0
  0
LINE
  5
8E
330
85
100
AcDbEntity
  8
FORMAT
 62
     0
100
AcDbLine
 10
0.0
 20
-5.0
 30
0.0
 11
0.0
 21
-202.5
 31
0.0
  0
LINE
  5
8F
330
85
100
AcDbEntity
  8
FORMAT
 62
     0
100
AcDbLine
 10
5.0
 20
0.0
 30
0.0
 11
202.5
 21
0.0
 31
0.0
  0
ENDBLK
  5
87
330
85
100
AcDbEntity
  8
0
100
AcDbBlockEnd
  0
ENDSEC
  0
SECTION
  2
ENTITIES
  0
CIRCLE
  5
83
330
1F
100
AcDbEntity
  8
0
  6
Continuous
 62
     7
370
    25
100
AcDbCircle
 10
142.8220984182
 20
108.1777550595
 30
0.0
 40
163.7
  0
CIRCLE
  5
84
330
1F
100
AcDbEntity
  8
0
  6
Continuous
 62
     7
370
    25
100
AcDbCircle
 10
142.8220984182
 20
108.1777550595
 30
0.0
 40
200.0
  0
INSERT
  5
90
330
1F
100
AcDbEntity
  8
FORMAT
100
AcDbBlockReference
  2
SW_CENTERMARKSYMBOL_0
 10
142.8220984182
 20
108.1777550595
 30
0.0
  0
ARC
  5
91
330
1F
100
AcDbEntity
  8
0
  6
Continuous
 62
     7
370
    25
100
AcDbCircle
 10
137.2210684665
 20
1032.5674637355
 30
0.0
 40
600.0000000000001
100
AcDbArc
 50
270.5348667305
 51
290.0395300314
  0
ARC
  5
92
330
1F
100
AcDbEntity
  8
0
  6
Continuous
 62
     7
370
    25
100
AcDbCircle
 10
148.4231283699
 20
1032.5674637355
 30
0.0
 40
600.0000000000001
100
AcDbArc
 50
249.9604699686
 51
269.4651332695
  0
LINE
  5
93
330
1F
100
AcDbEntity
  8
0
  6
Continuous
 62
     7
370
    25
100
AcDbLine
 10
-57.1779015818
 20
683.8902843085
 30
0.0
 11
-57.1779015818
 21
468.8936072522
 31
0.0
  0
LINE
  5
94
330
1F
100
AcDbEntity
  8
0
  6
Continuous
 62
     7
370
    25
100
AcDbLine
 10
342.8220984182
 20
468.8936072522
 30
0.0
 11
342.8220984182
 21
683.8902843085
 31
0.0
  0
LINE
  5
95
330
1F
100
AcDbEntity
  8
0
  6
Continuous
 62
     7
370
    25
100
AcDbLine
 10
142.8220984182
 20
468.8936072522
 30
0.0
 11
342.8220984182
 21
468.8936072522
 31
0.0
  0
LINE
  5
96
330
1F
100
AcDbEntity
  8
0
  6
Continuous
 62
     7
370
    25
100
AcDbLine
 10
-57.1779015818
 20
468.8936072522
 30
0.0
 11
142.8220984182
 21
468.8936072522
 31
0.0
  0
LINE
  5
97
330
1F
100
AcDbEntity
  8
0
  6
Continuous
 62
     7
370
    25
100
AcDbLine
 10
142.8220984182
 20
683.8902843085
 30
0.0
 11
342.8220984182
 21
683.8902843085
 31
0.0
  0
LINE
  5
98
330
1F
100
AcDbEntity
  8
0
  6
Continuous
 62
     7
370
    25
100
AcDbLine
 10
-57.1779015818
 20
683.8902843085
 30
0.0
 11
142.8220984182
 21
683.8902843085
 31
0.0
  0
LINE
  5
99
330
1F
100
AcDbEntity
  8
0
  6
Continuous
 62
     7
370
    25
100
AcDbLine
 10
342.8220984182
 20
-429.9465411843
 30
0.0
 11
342.8220984182
 21
-214.949864128
 31
0.0
  0
LINE
  5
9A
330
1F
100
AcDbEntity
  8
0
  6
Continuous
 62
     7
370
    25
100
AcDbLine
 10
-57.1779015818
 20
-214.949864128
 30
0.0
 11
-57.1779015818
 21
-429.9465411843
 31
0.0
  0
ARC
  5
9B
330
1F
100
AcDbEntity
  8
0
  6
Continuous
 62
     7
370
    25
100
AcDbCircle
 10
148.4231283699
 20
-778.6237206113
 30
0.0
 40
600.0
100
AcDbArc
 50
90.5348667305
 51
110.0395300314
  0
ARC
  5
9C
330
1F
100
AcDbEntity
  8
0
  6
Continuous
 62
     7
370
    25
100
AcDbCircle
 10
137.2210684665
 20
-778.6237206113
 30
0.0
 40
600.0
100
AcDbArc
 50
69.9604699686
 51
89.4651332695
  0
LINE
  5
9D
330
1F
100
AcDbEntity
  8
0
  6
Continuous
 62
     7
370
    25
100
AcDbLine
 10
342.8220984182
 20
-429.9465411843
 30
0.0
 11
-57.1779015818
 21
-429.9465411843
 31
0.0
  0
LINE
  5
9E
330
1F
100
AcDbEntity
  8
0
  6
Continuous
 62
     7
370
    25
100
AcDbLine
 10
342.8220984182
 20
-214.949864128
 30
0.0
 11
-57.1779015818
 21
-214.949864128
 31
0.0
  0
ARC
  5
9F
330
1F
100
AcDbEntity
  8
0
  6
Continuous
 62
     7
370
    25
100
AcDbCircle
 10
1083.019506016
 20
113.7787850112
 30
0.0
 40
600.0
100
AcDbArc
 50
180.5348667305
 51
200.0395300314
  0
ARC
  5
A0
330
1F
100
AcDbEntity
  8
0
  6
Continuous
 62
     7
370
    25
100
AcDbCircle
 10
1083.019506016
 20
102.5767251078
 30
0.0
 40
600.0
100
AcDbArc
 50
159.9604699686
 51
179.4651332695
  0
LINE
  5
A1
330
1F
100
AcDbEntity
  8
0
  6
Continuous
 62
     7
370
    25
100
AcDbLine
 10
734.342326589
 20
308.1777550595
 30
0.0
 11
519.3456495327
 21
308.1777550595
 31
0.0
  0
LINE
  5
A2
330
1F
100
AcDbEntity
  8
0
  6
Continuous
 62
     7
370
    25
100
AcDbLine
 10
519.3456495327
 20
-91.8222449405
 30
0.0
 11
734.342326589
 21
-91.8222449405
 31
0.0
  0
LINE
  5
A3
330
1F
100
AcDbEntity
  8
0
  6
Continuous
 62
     7
370
    25
100
AcDbLine
 10
519.3456495327
 20
308.1777550595
 30
0.0
 11
519.3456495327
 21
-91.8222449405
 31
0.0
  0
LINE
  5
A4
330
1F
100
AcDbEntity
  8
0
  6
Continuous
 62
     7
370
    25
100
AcDbLine
 10
734.342326589
 20
308.1777550595
 30
0.0
 11
734.342326589
 21
-91.8222449405
 31
0.0
  0
ARC
  5
A5
330
1F
100
AcDbEntity
  8
0
  6
Continuous
 62
     7
370
    25
100
AcDbCircle
 10
-787.5808000664
 20
102.5767251078
 30
0.0
 40
600.0
100
AcDbArc
 50
0.5348667305
 51
20.0395300314
  0
ARC
  5
A6
330
1F
100
AcDbEntity
  8
0
  6
Continuous
 62
     7
370
    25
100
AcDbCircle
 10
-787.5808000664
 20
113.7787850112
 30
0.0
 40
600.0
100
AcDbArc
 50
339.9604699686
 51
359.4651332695
  0
LINE
  5
A7
330
1F
100
AcDbEntity
  8
0
  6
Continuous
 62
     7
370
    25
100
AcDbLine
 10
-438.9036206394
 20
-91.8222449405
 30
0.0
 11
-223.9069435831
 21
-91.8222449405
 31
0.0
  0
LINE
  5
A8
330
1F
100
AcDbEntity
  8
0
  6
Continuous
 62
     7
370
    25
100
AcDbLine
 10
-223.9069435831
 20
308.1777550595
 30
0.0
 11
-438.9036206394
 21
308.1777550595
 31
0.0
  0
LINE
  5
A9
330
1F
100
AcDbEntity
  8
0
  6
Continuous
 62
     7
370
    25
100
AcDbLine
 10
-223.9069435831
 20
-91.8222449405
 30
0.0
 11
-223.9069435831
 21
308.1777550595
 31
0.0
  0
LINE
  5
AA
330
1F
100
AcDbEntity
  8
0
  6
Continuous
 62
     7
370
    25
100
AcDbLine
 10
-438.9036206394
 20
-91.8222449405
 30
0.0
 11
-438.9036206394
 21
308.1777550595
 31
0.0
  0
LINE
  5
AB
330
1F
100
AcDbEntity
  8
0
  6
Continuous
 62
     7
370
    25
100
AcDbLine
 10
480.9145020861
 20
-507.1628589554
 30
0.0
 11
632.9401103652
 21
-594.9253745373
 31
0.0
  0
LINE
  5
AC
330
1F
100
AcDbEntity
  8
0
  6
Continuous
 62
     7
370
    25
100
AcDbLine
 10
832.9238568924
 20
-248.505829585
 30
0.0
 11
680.8982486133
 21
-160.7433140032
 31
0.0
  0
LWPOLYLINE
  5
AD
330
1F
100
AcDbEntity
  8
0
  6
Continuous
 62
     7
370
    25
100
AcDbPolyline
 90
      151
 70
   128
 43
0.0
 10
580.9063753497
 20
-497.2612488565
 10
586.8284870934
 20
-493.6992375126
 10
592.7402094408
 20
-489.8569771377
 10
598.631171222
 20
-485.741208362
 10
604.4910376883
 20
-481.3591516427
 10
610.3095286428
 20
-476.7184945961
 10
616.0764364751
 20
-471.8273785117
 10
621.7816440693
 20
-466.6943840691
 10
627.4151425527
 20
-461.3285162847
 10
632.9670488547
 20
-455.7391887139
 10
638.4276230449
 20
-449.9362069366
 10
643.7872854209
 20
-443.9297513548
 10
649.0366333135
 20
-437.7303593324
 10
654.1664575828
 20
-431.3489067097
 10
659.167758774
 20
-424.7965887229
 10
664.0317629052
 20
-418.0849003644
 10
668.7499368605
 20
-411.2256162162
 10
673.3140033594
 20
-404.2307697934
 10
677.7159554785
 20
-397.1126324336
 10
681.9480706979
 20
-389.8836917684
 10
686.0029244495
 20
-382.5566298162
 10
689.8734031419
 20
-375.1443007334
 10
693.5527166403
 20
-367.6597082639
 10
697.0344101786
 20
-360.1159829262
 10
700.3123756833
 20
-352.5263589779
 10
703.3808624889
 20
-344.9041511985
 10
706.234487427
 20
-337.2627315303
 10
708.8682442697
 20
-329.6155056201
 10
711.2775125126
 20
-321.9758893006
 10
713.4580654805
 20
-314.3572850548
 10
715.4060777425
 20
-306.7730585035
 10
717.1181318233
 20
-299.236514957
 10
718.5912241981
 20
-291.7608760738
 10
719.8227705624
 20
-284.3592566646
 10
720.8106103654
 20
-277.044641685
 10
721.5530106004
 20
-269.8298634553
 10
722.0486688451
 20
-262.7275791479
 10
722.2967155466
 20
-255.7502485829
 10
722.2967155466
 20
-248.9101123692
 10
722.0486688451
 20
-242.2191704298
 10
721.5530106004
 20
-235.6891609506
 10
720.8106103654
 20
-229.331539787
 10
719.8227705624
 20
-223.157460367
 10
718.5912241981
 20
-217.1777541238
 10
717.1181318233
 20
-211.4029114941
 10
715.4060777425
 20
-205.8430635141
 10
713.4580654805
 20
-200.5079640465
 10
711.2775125126
 20
-195.4069726686
 10
708.8682442697
 20
-190.5490382526
 10
706.234487427
 20
-185.9426832662
 10
703.3808624889
 20
-181.5959888213
 10
700.3123756833
 20
-177.516580497
 10
697.0344101786
 20
-173.7116149617
 10
693.5527166403
 20
-170.1877674178
 10
689.8734031419
 20
-166.9512198914
 10
686.0029244495
 20
-164.0076503867
 10
681.9480706979
 20
-161.3622229246
 10
677.7159554785
 20
-159.019578484
 10
673.3140033594
 20
-156.9838268593
 10
668.7499368605
 20
-155.2585394504
 10
664.0317629052
 20
-153.8467429979
 10
659.167758774
 20
-152.7509142724
 10
654.1664575828
 20
-151.9729757299
 10
649.0366333135
 20
-151.5142921388
 10
643.7872854209
 20
-151.3756681862
 10
638.4276230449
 20
-151.5573470654
 10
632.9670488547
 20
-152.0590100501
 10
627.4151425527
 20
-152.8797770529
 10
621.7816440693
 20
-154.0182081695
 10
616.0764364751
 20
-155.472306205
 10
610.3095286428
 20
-157.2395201772
 10
604.4910376883
 20
-159.3167497924
 10
598.631171222
 20
-161.700350884
 10
592.7402094408
 20
-164.3861418057
 10
586.8284870934
 20
-167.3694107676
 10
580.9063753497
 20
-170.6449241022
 10
574.984263606
 20
-174.206935446
 10
569.0725412587
 20
-178.049195821
 10
563.1815794775
 20
-182.1649645966
 10
557.3217130111
 20
-186.5470213159
 10
551.5032220567
 20
-191.1876783625
 10
545.7363142244
 20
-196.0787944469
 10
540.0311066301
 20
-201.2117888895
 10
534.3976081468
 20
-206.577656674
 10
528.8457018448
 20
-212.1669842447
 10
523.3851276545
 20
-217.969966022
 10
518.0254652786
 20
-223.9764216038
 10
512.776117386
 20
-230.1758136262
 10
507.6462931166
 20
-236.557266249
 10
502.6449919255
 20
-243.1095842357
 10
497.7809877942
 20
-249.8212725942
 10
493.062813839
 20
-256.6805567424
 10
488.4987473401
 20
-263.6754031652
 10
484.096795221
 20
-270.793540525
 10
479.8646800016
 20
-278.0224811902
 10
475.80982625
 20
-285.3495431424
 10
471.9393475576
 20
-292.7618722252
 10
468.2600340592
 20
-300.2464646947
 10
464.7783405209
 20
-307.7901900324
 10
461.5003750162
 20
-315.3798139807
 10
458.4318882106
 20
-323.0020217601
 10
455.5782632725
 20
-330.6434414283
 10
452.9445064298
 20
-338.2906673386
 10
450.5352381869
 20
-345.930283658
 10
448.354685219
 20
-353.5488879038
 10
446.4066729569
 20
-361.1331144551
 10
444.6946188762
 20
-368.6696580016
 10
443.2215265014
 20
-376.1452968848
 10
441.9899801371
 20
-383.546916294
 10
441.0021403341
 20
-390.8615312736
 10
440.2597400991
 20
-398.0763095034
 10
439.7640818543
 20
-405.1785938107
 10
439.5160351529
 20
-412.1559243757
 10
439.5160351529
 20
-418.9960605894
 10
439.7640818543
 20
-425.6870025288
 10
440.2597400991
 20
-432.2170120081
 10
441.0021403341
 20
-438.5746331716
 10
441.9899801371
 20
-444.7487125916
 10
443.2215265014
 20
-450.7284188348
 10
444.6946188762
 20
-456.5032614645
 10
446.4066729569
 20
-462.0631094445
 10
448.354685219
 20
-467.3982089121
 10
450.5352381869
 20
-472.49920029
 10
452.9445064298
 20
-477.357134706
 10
455.5782632725
 20
-481.9634896924
 10
458.4318882106
 20
-486.3101841373
 10
461.5003750162
 20
-490.3895924616
 10
464.7783405209
 20
-494.1945579969
 10
468.2600340592
 20
-497.7184055408
 10
471.9393475576
 20
-500.9549530672
 10
475.80982625
 20
-503.898522572
 10
479.8646800016
 20
-506.543950034
 10
484.096795221
 20
-508.8865944746
 10
488.4987473401
 20
-510.9223460993
 10
493.062813839
 20
-512.6476335082
 10
497.7809877942
 20
-514.0594299607
 10
502.6449919255
 20
-515.1552586862
 10
507.6462931166
 20
-515.9331972288
 10
512.776117386
 20
-516.3918808198
 10
518.0254652786
 20
-516.5305047724
 10
523.3851276545
 20
-516.3488258932
 10
528.8457018448
 20
-515.8471629085
 10
534.3976081468
 20
-515.0263959057
 10
540.0311066301
 20
-513.8879647891
 10
545.7363142244
 20
-512.4338667536
 10
551.5032220567
 20
-510.6666527814
 10
557.3217130112
 20
-508.5894231662
 10
563.1815794775
 20
-506.2058220746
 10
569.0725412587
 20
-503.5200311529
 10
574.984263606
 20
-500.536762191
 10
580.9063753497
 20
-497.2612488565
  0
LWPOLYLINE
  5
AE
330
1F
100
AcDbEntity
  8
0
  6
Continuous
 62
     7
370
    25
100
AcDbPolyline
 90
       58
 70
   128
 43
0.0
 10
732.9319836288
 20
-585.0237644383
 10
738.8540953725
 20
-581.4617530944
 10
744.7658177199
 20
-577.6194927195
 10
750.6567795011
 20
-573.5037239439
 10
756.5166459674
 20
-569.1216672245
 10
762.3351369219
 20
-564.481010178
 10
768.1020447542
 20
-559.5898940936
 10
773.8072523484
 20
-554.4568996509
 10
779.4407508318
 20
-549.0910318665
 10
784.9926571337
 20
-543.5017042958
 10
790.453231324
 20
-537.6987225185
 10
795.8128937
 20
-531.6922669366
 10
801.0622415926
 20
-525.4928749142
 10
806.1920658619
 20
-519.1114222915
 10
811.1933670531
 20
-512.5591043048
 10
816.0573711843
 20
-505.8474159463
 10
820.7755451396
 20
-498.988131798
 10
825.3396116385
 20
-491.9932853753
 10
829.7415637576
 20
-484.8751480154
 10
833.973678977
 20
-477.6462073503
 10
838.0285327286
 20
-470.319145398
 10
841.899011421
 20
-462.9068163152
 10
845.5783249194
 20
-455.4222238457
 10
849.0600184577
 20
-447.8784985081
 10
852.3379839624
 20
-440.2888745598
 10
855.406470768
 20
-432.6666667803
 10
858.2600957061
 20
-425.0252471121
 10
860.8938525488
 20
-417.3780212019
 10
863.3031207917
 20
-409.7384048824
 10
865.4836737596
 20
-402.1198006367
 10
867.4316860216
 20
-394.5355740853
 10
869.1437401024
 20
-386.9990305389
 10
870.6168324772
 20
-379.5233916556
 10
871.8483788415
 20
-372.1217722465
 10
872.8362186445
 20
-364.8071572669
 10
873.5786188795
 20
-357.5923790371
 10
874.0742771242
 20
-350.4900947297
 10
874.3223238257
 20
-343.5127641648
 10
874.3223238257
 20
-336.672627951
 10
874.0742771242
 20
-329.9816860116
 10
873.5786188795
 20
-323.4516765324
 10
872.8362186445
 20
-317.0940553689
 10
871.8483788415
 20
-310.9199759489
 10
870.6168324772
 20
-304.9402697057
 10
869.1437401024
 20
-299.1654270759
 10
867.4316860216
 20
-293.605579096
 10
865.4836737596
 20
-288.2704796283
 10
863.3031207917
 20
-283.1694882504
 10
860.8938525488
 20
-278.3115538344
 10
858.2600957061
 20
-273.705198848
 10
855.406470768
 20
-269.3585044032
 10
852.3379839624
 20
-265.2790960789
 10
849.0600184577
 20
-261.4741305435
 10
845.5783249194
 20
-257.9502829997
 10
841.899011421
 20
-254.7137354733
 10
838.0285327286
 20
-251.7701659685
 10
833.973678977
 20
-249.1247385065
 10
832.9238568924
 20
-248.505829585
  0
LWPOLYLINE
  5
AF
330
1F
100
AcDbEntity
  8
0
  6
Continuous
 62
     7
370
    25
100
AcDbPolyline
 90
       20
 70
   128
 43
0.0
 10
632.9401103652
 20
-594.9253745373
 10
636.1224035001
 20
-596.6491100564
 10
640.5243556191
 20
-598.6848616812
 10
645.0884221181
 20
-600.41014909
 10
649.8065960733
 20
-601.8219455425
 10
654.6706002046
 20
-602.9177742681
 10
659.6719013957
 20
-603.6957128106
 10
664.8017256651
 20
-604.1543964016
 10
670.0510735577
 20
-604.2930203543
 10
675.4107359336
 20
-604.111341475
 10
680.8713101239
 20
-603.6096784903
 10
686.4232164258
 20
-602.7889114876
 10
692.0567149092
 20
-601.650480371
 10
697.7619225035
 20
-600.1963823355
 10
703.5288303358
 20
-598.4291683633
 10
709.3473212902
 20
-596.351938748
 10
715.2071877566
 20
-593.9683376565
 10
721.0981495378
 20
-591.2825467348
 10
727.0098718851
 20
-588.2992777729
 10
732.9319836288
 20
-585.0237644383
  0
LWPOLYLINE
  5
B0
330
1F
100
AcDbEntity
  8
0
  6
Continuous
 62
     7
370
    25
100
AcDbPolyline
 90
      136
 70
   128
 43
0.0
 10
580.9063753497
 20
-467.620817385
 10
586.2918374959
 20
-464.3671089939
 10
591.6656359303
 20
-460.8309528703
 10
597.0161322021
 20
-457.0200075408
 10
602.3317383279
 20
-452.9425266645
 10
607.6009418883
 20
-448.607341157
 10
612.8123309619
 20
-444.0238400647
 10
617.9546188404
 20
-439.2019502304
 10
623.0166684733
 20
-434.1521147936
 10
627.9875165883
 20
-428.8852705736
 10
632.8563974352
 20
-423.4128243821
 10
637.6127661024
 20
-417.7466283189
 10
642.2463213544
 20
-411.898954103
 10
646.7470279423
 20
-405.8824664945
 10
651.105138338
 20
-399.710195866
 10
655.3112138447
 20
-393.3955099811
 10
659.3561450394
 20
-386.9520850434
 10
663.231171502
 20
-380.3938760765
 10
666.9279007879
 20
-373.7350867006
 10
670.4383266047
 20
-366.9901383707
 10
673.7548461519
 20
-360.173639143
 10
676.8702765865
 20
-353.300352037
 10
679.77787058
 20
-346.385163062
 10
682.4713309312
 20
-339.4430489775
 10
684.9448242049
 20
-332.4890448566
 10
687.1929933652
 20
-325.5382115239
 10
689.2109693786
 20
-318.6056029366
 10
690.9943817582
 20
-311.7062335811
 10
692.5393680301
 20
-304.8550459551
 10
693.8425820979
 20
-298.0668782054
 10
694.9012014901
 20
-291.3564319918
 10
695.712933473
 20
-284.7382406465
 10
696.2760200158
 20
-278.2266376983
 10
696.5892415984
 20
-271.8357258291
 10
696.6519198526
 20
-265.579346331
 10
696.4639190313
 20
-259.4710491288
 10
696.0256463024
 20
-253.524063434
 10
695.3380508671
 20
-247.7512690935
 10
694.4026219038
 20
-242.1651686943
 10
693.2213853436
 20
-236.7778604859
 10
691.7968994817
 20
-231.6010121783
 10
690.1322494373
 20
-226.6458356722
 10
688.2310404717
 20
-221.9230627765
 10
686.0973901802
 20
-217.4429219656
 10
683.7359195742
 20
-213.2151162269
 10
681.1517430731
 20
-209.2488020462
 10
678.350457428
 20
-205.5525695768
 10
675.3381295996
 20
-202.1344240352
 10
672.1212836193
 20
-199.0017683634
 10
668.7068864591
 20
-196.1613871962
 10
665.1023329431
 20
-193.6194321665
 10
661.3154297314
 20
-191.3814085829
 10
657.3543784132
 20
-189.4521635063
 10
653.2277577435
 20
-187.8358752517
 10
648.9445050639
 20
-186.5360443398
 10
644.5138969459
 20
-185.5554859147
 10
639.9455291
 20
-184.8963236477
 10
635.2492955938
 20
-184.5599851375
 10
630.4353674232
 20
-184.5471988184
 10
625.5141704848
 20
-184.8579923826
 10
620.4963629952
 20
-185.4916927207
 10
615.3928124082
 20
-186.4469273786
 10
610.2145718779
 20
-187.721627531
 10
604.9728563201
 20
-189.313032461
 10
599.6790181236
 20
-191.2176955401
 10
594.3445225631
 20
-193.431491692
 10
588.9809229681
 20
-195.9496263272
 10
583.599835701
 20
-198.766645727
 10
578.2129149985
 20
-201.8764488545
 10
572.8318277314
 20
-205.2723005687
 10
567.4682281364
 20
-208.9468462109
 10
562.1337325759
 20
-212.8921275335
 10
556.8398943794
 20
-217.0995999357
 10
551.5981788216
 20
-221.5601509691
 10
546.4199382913
 20
-226.2641200736
 10
541.3163877043
 20
-231.2013194994
 10
536.2985802147
 20
-236.361056372
 10
531.3773832763
 20
-241.7321558503
 10
526.5634551057
 20
-247.3029853289
 10
521.8672215995
 20
-253.0614796316
 10
517.2988537536
 20
-258.995167142
 10
512.8682456356
 20
-265.0911968143
 10
508.584992956
 20
-271.3363660057
 10
504.4583722863
 20
-277.7171490703
 10
500.4973209681
 20
-284.2197266528
 10
496.7104177564
 20
-290.8300156183
 10
493.1058642403
 20
-297.5336995527
 10
489.6914670802
 20
-304.3162597695
 10
486.4746210999
 20
-311.1630067535
 10
483.4622932715
 20
-318.0591119753
 10
480.6610076263
 20
-324.9896400067
 10
478.0768311253
 20
-331.9395808672
 10
475.7153605193
 20
-338.8938825324
 10
473.5817102278
 20
-345.8374835337
 10
471.6805012622
 20
-352.7553455773
 10
470.0158512178
 20
-359.6324861145
 10
468.5913653559
 20
-366.4540107903
 10
467.4101287956
 20
-373.2051457013
 10
466.4746998324
 20
-379.8712693925
 10
465.7871043971
 20
-386.4379445245
 10
465.3488316682
 20
-392.8909491411
 10
465.1608308469
 20
-399.2163074713
 10
465.2235091011
 20
-405.4003201975
 10
465.5367306837
 20
-411.429594125
 10
466.0998172265
 20
-417.2910711893
 10
466.9115492094
 20
-422.9720567361
 10
467.9701686016
 20
-428.4602470159
 10
469.2733826694
 20
-433.7437558305
 10
470.8183689412
 20
-438.8111402763
 10
472.6017813209
 20
-443.6514255272
 10
474.6197573342
 20
-448.2541286029
 10
476.8679264946
 20
-452.6092810736
 10
479.3414197682
 20
-456.7074506489
 10
482.0348801195
 20
-460.5397616059
 10
484.942474113
 20
-464.0979140126
 10
488.0579045476
 20
-467.3742017031
 10
491.3744240947
 20
-470.3615289678
 10
494.8848499116
 20
-473.0534259211
 10
498.5815791975
 20
-475.4440625137
 10
502.4566056601
 20
-477.528261159
 10
506.5015368548
 20
-479.3015079468
 10
510.7076123615
 20
-480.7599624194
 10
515.0657227571
 20
-481.9004658893
 10
519.5664293451
 20
-482.7205482799
 10
524.1999845971
 20
-483.2184334753
 10
528.9563532643
 20
-483.3930431671
 10
533.8252341112
 20
-483.2439991896
 10
538.7960822262
 20
-482.7716243387
 10
543.8581318591
 20
-481.9769416734
 10
549.0004197375
 20
-480.8616722992
 10
554.2118088112
 20
-479.4282316413
 10
559.4810123716
 20
-477.679724213
 10
564.7966184974
 20
-475.6199368919
 10
570.1471147692
 20
-473.2533307188
 10
575.5209132036
 20
-470.5850312357
 10
580.9063753497
 20
-467.620817385
  0
LWPOLYLINE
  5
B1
330
1F
100
AcDbEntity
  8
0
  6
Continuous
 62
     7
370
    25
100
AcDbPolyline
 90
       28
 70
   128
 43
0.0
 10
695.0001549973
 20
-290.6416643372
 10
690.4830760236
 20
-294.2501665029
 10
685.2413604659
 20
-298.7107175364
 10
680.0631199355
 20
-303.4146866408
 10
674.9595693485
 20
-308.3518860666
 10
669.941761859
 20
-313.5116229392
 10
665.0205649205
 20
-318.8827224176
 10
660.20663675
 20
-324.4535518962
 10
655.5104032437
 20
-330.2120461989
 10
650.9420353979
 20
-336.1457337093
 10
646.5114272798
 20
-342.2417633816
 10
642.2281746002
 20
-348.4869325729
 10
638.1015539306
 20
-354.8677156375
 10
634.1405026123
 20
-361.3702932201
 10
630.3535994006
 20
-367.9805821855
 10
626.7490458846
 20
-374.68426612
 10
623.3346487244
 20
-381.4668263367
 10
620.1178027441
 20
-388.3135733207
 10
617.1054749158
 20
-395.2096785425
 10
614.3041892706
 20
-402.1402065739
 10
611.7200127696
 20
-409.0901474344
 10
609.3585421636
 20
-416.0444490997
 10
607.2248918721
 20
-422.9880501009
 10
605.3236829065
 20
-429.9059121445
 10
603.6590328621
 20
-436.7830526817
 10
602.2345470001
 20
-443.6045773576
 10
601.0533104399
 20
-450.3557122685
 10
600.4557773464
 20
-454.4150751887
  0
ENDSEC
  0
SECTION
  2
OBJECTS
  0
DICTIONARY
  5
C
330
0
100
AcDbDictionary
281
     1
  3
ACAD_GROUP
350
D
  3
ACAD_LAYOUT
350
1A
  3
ACAD_MLINESTYLE
350
17
  3
ACAD_PLOTSETTINGS
350
19
  3
ACAD_PLOTSTYLENAME
350
E
  3
ACAD_SCALELIST
350
47
  3
DWGPROPS
350
B2
  0
DICTIONARY
  5
D
102
{ACAD_REACTORS
330
C
102
}
330
C
100
AcDbDictionary
281
     1
  0
DICTIONARY
  5
1A
102
{ACAD_REACTORS
330
C
102
}
330
C
100
AcDbDictionary
281
     1
  3
Layout1
350
1E
  3
Layout2
350
26
  3
Model
350
22
  0
DICTIONARY
  5
17
102
{ACAD_REACTORS
330
C
102
}
330
C
100
AcDbDictionary
281
     1
  3
Standard
350
18
  0
DICTIONARY
  5
19
102
{ACAD_REACTORS
330
C
102
}
330
C
100
AcDbDictionary
281
     1
  0
ACDBDICTIONARYWDFLT
  5
E
102
{ACAD_REACTORS
330
C
102
}
330
C
100
AcDbDictionary
281
     1
  3
Normal
350
F
100
AcDbDictionaryWithDefault
340
F
  0
DICTIONARY
  5
47
102
{ACAD_REACTORS
330
C
102
}
330
C
100
AcDbDictionary
281
     1
  3
A0
350
48
  3
A1
350
49
  3
A2
350
4A
  3
A3
350
4B
  3
A4
350
4C
  3
A5
350
4D
  3
A6
350
4E
  3
A7
350
4F
  3
A8
350
50
  3
A9
350
51
  3
B0
350
52
  3
B1
350
53
  3
B2
350
54
  3
B3
350
55
  3
B4
350
56
  3
B5
350
57
  3
B6
350
58
  3
B7
350
59
  3
B8
350
5A
  3
B9
350
5B
  3
C0
350
5C
  3
C1
350
5D
  3
C2
350
5E
  3
C3
350
5F
  3
C4
350
60
  3
C5
350
61
  3
C6
350
62
  3
C7
350
63
  3
C8
350
64
  3
C9
350
65
  3
D0
350
66
  3
D1
350
67
  3
D2
350
68
  0
XRECORD
  5
B2
102
{ACAD_REACTORS
330
C
102
}
330
C
100
AcDbXrecord
280
     1
  1
DWGPROPS COOKIE
  2

  3

  4

  6

  7

  8
b.kav
  9

300
=
301
=
302
=
303
=
304
=
305
=
306
=
307
=
308
=
309
=
 40
0.0
 41
2460697.416031111
 42
2460697.416031273
  1

 90
        0
  0
LAYOUT
  5
1E
102
{ACAD_REACTORS
330
1A
102
}
330
1A
100
AcDbPlotSettings
  1

  2
none_device
  4

  6

 40
0.0
 41
0.0
 42
0.0
 43
0.0
 44
0.0
 45
0.0
 46
0.0
 47
0.0
 48
0.0
 49
0.0
140
0.0
141
0.0
142
1.0
143
1.0
 70
   688
 72
     1
 73
     0
 74
     5
  7

 75
    16
147
1.0
148
0.0
149
0.0
100
AcDbLayout
  1
Layout1
 70
     1
 71
     1
 10
0.0
 20
0.0
 11
420.0
 21
297.0
 12
0.0
 22
0.0
 32
0.0
 14
1.0000000000E+20
 24
1.0000000000E+20
 34
1.0000000000E+20
 15
-1.0000000000E+20
 25
-1.0000000000E+20
 35
-1.0000000000E+20
146
0.0
 13
0.0
 23
0.0
 33
0.0
 16
1.0
 26
0.0
 36
0.0
 17
0.0
 27
1.0
 37
0.0
 76
     0
330
1B
  0
LAYOUT
  5
26
102
{ACAD_REACTORS
330
1A
102
}
330
1A
100
AcDbPlotSettings
  1

  2
none_device
  4

  6

 40
0.0
 41
0.0
 42
0.0
 43
0.0
 44
0.0
 45
0.0
 46
0.0
 47
0.0
 48
0.0
 49
0.0
140
0.0
141
0.0
142
1.0
143
1.0
 70
   688
 72
     1
 73
     0
 74
     5
  7

 75
    16
147
1.0
148
0.0
149
0.0
100
AcDbLayout
  1
Layout2
 70
     1
 71
     2
 10
0.0
 20
0.0
 11
0.0
 21
0.0
 12
0.0
 22
0.0
 32
0.0
 14
0.0
 24
0.0
 34
0.0
 15
0.0
 25
0.0
 35
0.0
146
0.0
 13
0.0
 23
0.0
 33
0.0
 16
1.0
 26
0.0
 36
0.0
 17
0.0
 27
1.0
 37
0.0
 76
     0
330
23
  0
LAYOUT
  5
22
102
{ACAD_REACTORS
330
1A
102
}
330
1A
100
AcDbPlotSettings
  1

  2
none_device
  4
Letter_(8.50_x_11.00_Inches)
  6

 40
6.35
 41
6.35
 42
6.35000508
 43
6.35000508
 44
215.9
 45
279.4
 46
0.0
 47
0.0
 48
0.0
 49
0.0
140
0.0
141
0.0
142
1.0
143
1.0
 70
  1712
 72
     1
 73
     0
 74
     0
  7

 75
     0
147
1.0
148
0.0
149
0.0
100
AcDbLayout
  1
Model
 70
     1
 71
     0
 10
0.0
 20
0.0
 11
279.4
 21
215.9
 12
0.0
 22
0.0
 32
0.0
 14
0.0
 24
0.0
 34
0.0
 15
279.4
 25
215.9
 35
0.0
146
0.0
 13
0.0
 23
0.0
 33
0.0
 16
1.0
 26
0.0
 36
0.0
 17
0.0
 27
1.0
 37
0.0
 76
     0
330
1F
331
29
  0
MLINESTYLE
  5
18
102
{ACAD_REACTORS
330
17
102
}
330
17
100
AcDbMlineStyle
  2
Standard
 70
     0
  3

 62
   256
 51
90.0
 52
90.0
 71
     2
 49
0.5
 62
   256
  6
BYLAYER
 49
-0.5
 62
   256
  6
BYLAYER
  0
ACDBPLACEHOLDER
  5
F
102
{ACAD_REACTORS
330
E
102
}
330
E
  0
SCALE
  5
48
102
{ACAD_REACTORS
330
47
102
}
330
47
100
AcDbScale
 70
     0
300
1:1
140
1.0
141
1.0
290
     1
  0
SCALE
  5
49
102
{ACAD_REACTORS
330
47
102
}
330
47
100
AcDbScale
 70
     0
300
1:2
140
1.0
141
2.0
290
     0
  0
SCALE
  5
4A
102
{ACAD_REACTORS
330
47
102
}
330
47
100
AcDbScale
 70
     0
300
1:4
140
1.0
141
4.0
290
     0
  0
SCALE
  5
4B
102
{ACAD_REACTORS
330
47
102
}
330
47
100
AcDbScale
 70
     0
300
1:5
140
1.0
141
5.0
290
     0
  0
SCALE
  5
4C
102
{ACAD_REACTORS
330
47
102
}
330
47
100
AcDbScale
 70
     0
300
1:8
140
1.0
141
8.0
290
     0
  0
SCALE
  5
4D
102
{ACAD_REACTORS
330
47
102
}
330
47
100
AcDbScale
 70
     0
300
1:10
140
1.0
141
10.0
290
     0
  0
SCALE
  5
4E
102
{ACAD_REACTORS
330
47
102
}
330
47
100
AcDbScale
 70
     0
300
1:16
140
1.0
141
16.0
290
     0
  0
SCALE
  5
4F
102
{ACAD_REACTORS
330
47
102
}
330
47
100
AcDbScale
 70
     0
300
1:20
140
1.0
141
20.0
290
     0
  0
SCALE
  5
50
102
{ACAD_REACTORS
330
47
102
}
330
47
100
AcDbScale
 70
     0
300
1:30
140
1.0
141
30.0
290
     0
  0
SCALE
  5
51
102
{ACAD_REACTORS
330
47
102
}
330
47
100
AcDbScale
 70
     0
300
1:40
140
1.0
141
40.0
290
     0
  0
SCALE
  5
52
102
{ACAD_REACTORS
330
47
102
}
330
47
100
AcDbScale
 70
     0
300
1:50
140
1.0
141
50.0
290
     0
  0
SCALE
  5
53
102
{ACAD_REACTORS
330
47
102
}
330
47
100
AcDbScale
 70
     0
300
1:100
140
1.0
141
100.0
290
     0
  0
SCALE
  5
54
102
{ACAD_REACTORS
330
47
102
}
330
47
100
AcDbScale
 70
     0
300
2:1
140
2.0
141
1.0
290
     0
  0
SCALE
  5
55
102
{ACAD_REACTORS
330
47
102
}
330
47
100
AcDbScale
 70
     0
300
4:1
140
4.0
141
1.0
290
     0
  0
SCALE
  5
56
102
{ACAD_REACTORS
330
47
102
}
330
47
100
AcDbScale
 70
     0
300
8:1
140
8.0
141
1.0
290
     0
  0
SCALE
  5
57
102
{ACAD_REACTORS
330
47
102
}
330
47
100
AcDbScale
 70
     0
300
10:1
140
10.0
141
1.0
290
     0
  0
SCALE
  5
58
102
{ACAD_REACTORS
330
47
102
}
330
47
100
AcDbScale
 70
     0
300
100:1
140
100.0
141
1.0
290
     0
  0
SCALE
  5
59
102
{ACAD_REACTORS
330
47
102
}
330
47
100
AcDbScale
 70
     0
300
1/128" = 1'-0"
140
0.0078125
141
12.0
290
     0
  0
SCALE
  5
5A
102
{ACAD_REACTORS
330
47
102
}
330
47
100
AcDbScale
 70
     0
300
1/64" = 1'-0"
140
0.015625
141
12.0
290
     0
  0
SCALE
  5
5B
102
{ACAD_REACTORS
330
47
102
}
330
47
100
AcDbScale
 70
     0
300
1/32" = 1'-0"
140
0.03125
141
12.0
290
     0
  0
SCALE
  5
5C
102
{ACAD_REACTORS
330
47
102
}
330
47
100
AcDbScale
 70
     0
300
1/16" = 1'-0"
140
0.0625
141
12.0
290
     0
  0
SCALE
  5
5D
102
{ACAD_REACTORS
330
47
102
}
330
47
100
AcDbScale
 70
     0
300
3/32" = 1'-0"
140
0.09375
141
12.0
290
     0
  0
SCALE
  5
5E
102
{ACAD_REACTORS
330
47
102
}
330
47
100
AcDbScale
 70
     0
300
1/8" = 1'-0"
140
0.125
141
12.0
290
     0
  0
SCALE
  5
5F
102
{ACAD_REACTORS
330
47
102
}
330
47
100
AcDbScale
 70
     0
300
3/16" = 1'-0"
140
0.1875
141
12.0
290
     0
  0
SCALE
  5
60
102
{ACAD_REACTORS
330
47
102
}
330
47
100
AcDbScale
 70
     0
300
1/4" = 1'-0"
140
0.25
141
12.0
290
     0
  0
SCALE
  5
61
102
{ACAD_REACTORS
330
47
102
}
330
47
100
AcDbScale
 70
     0
300
3/8" = 1'-0"
140
0.375
141
12.0
290
     0
  0
SCALE
  5
62
102
{ACAD_REACTORS
330
47
102
}
330
47
100
AcDbScale
 70
     0
300
1/2" = 1'-0"
140
0.5
141
12.0
290
     0
  0
SCALE
  5
63
102
{ACAD_REACTORS
330
47
102
}
330
47
100
AcDbScale
 70
     0
300
3/4" = 1'-0"
140
0.75
141
12.0
290
     0
  0
SCALE
  5
64
102
{ACAD_REACTORS
330
47
102
}
330
47
100
AcDbScale
 70
     0
300
1" = 1'-0"
140
1.0
141
12.0
290
     0
  0
SCALE
  5
65
102
{ACAD_REACTORS
330
47
102
}
330
47
100
AcDbScale
 70
     0
300
1-1/2" = 1'-0"
140
1.5
141
12.0
290
     0
  0
SCALE
  5
66
102
{ACAD_REACTORS
330
47
102
}
330
47
100
AcDbScale
 70
     0
300
3" = 1'-0"
140
3.0
141
12.0
290
     0
  0
SCALE
  5
67
102
{ACAD_REACTORS
330
47
102
}
330
47
100
AcDbScale
 70
     0
300
6" = 1'-0"
140
6.0
141
12.0
290
     0
  0
SCALE
  5
68
102
{ACAD_REACTORS
330
47
102
}
330
47
100
AcDbScale
 70
     0
300
1'-0" = 1'-0"
140
12.0
141
12.0
290
     0
  0
ENDSEC
  0
EOF
